  0
SECTION
  2
HEADER
  9
$ACADVER
  1
AC1015
  9
$ACADMAINTVER
 70
     6
  9
$DWGCODEPAGE
  3
ANSI_1254
  9
$INSBASE
 10
0.0
 20
0.0
 30
0.0
  9
$EXTMIN
 10
0.0
 20
0.0
 30
0.0
  9
$EXTMAX
 10
279.4
 20
215.9
 30
0.0
  9
$LIMMIN
 10
0.0
 20
0.0
  9
$LIMMAX
 10
279.4
 20
215.9
  9
$ORTHOMODE
 70
     0
  9
$REGENMODE
 70
     1
  9
$FILLMODE
 70
     1
  9
$QTEXTMODE
 70
     0
  9
$MIRRTEXT
 70
     1
  9
$LTSCALE
 40
1.0
  9
$ATTMODE
 70
     1
  9
$TEXTSIZE
 40
3.5
  9
$TRACEWID
 40
1.0
  9
$TEXTSTYLE
  7
Standard
  9
$CLAYER
  8
0
  9
$CELTYPE
  6
ByLayer
  9
$CECOLOR
 62
   256
  9
$CELTSCALE
 40
1.0
  9
$DISPSILH
 70
     0
  9
$DIMSCALE
 40
1.0
  9
$DIMASZ
 40
3.5
  9
$DIMEXO
 40
1.0
  9
$DIMDLI
 40
3.75
  9
$DIMRND
 40
0.0
  9
$DIMDLE
 40
0.0
  9
$DIMEXE
 40
1.0
  9
$DIMTP
 40
0.0
  9
$DIMTM
 40
0.0
  9
$DIMTXT
 40
3.5
  9
$DIMCEN
 40
2.5
  9
$DIMTSZ
 40
0.0
  9
$DIMTOL
 70
     0
  9
$DIMLIM
 70
     0
  9
$DIMTIH
 70
     1
  9
$DIMTOH
 70
     1
  9
$DIMSE1
 70
     0
  9
$DIMSE2
 70
     0
  9
$DIMTAD
 70
     1
  9
$DIMZIN
 70
     0
  9
$DIMBLK
  1

  9
$DIMASO
 70
     1
  9
$DIMSHO
 70
     1
  9
$DIMPOST
  1

  9
$DIMAPOST
  1

  9
$DIMALT
 70
     0
  9
$DIMALTD
 70
     3
  9
$DIMALTF
 40
0.0393700787
  9
$DIMLFAC
 40
1.0
  9
$DIMTOFL
 70
     1
  9
$DIMTVP
 40
0.0
  9
$DIMTIX
 70
     0
  9
$DIMSOXD
 70
     0
  9
$DIMSAH
 70
     0
  9
$DIMBLK1
  1

  9
$DIMBLK2
  1

  9
$DIMSTYLE
  2
ISO-25
  9
$DIMCLRD
 70
     0
  9
$DIMCLRE
 70
     0
  9
$DIMCLRT
 70
     0
  9
$DIMTFAC
 40
1.0
  9
$DIMGAP
 40
1.524
  9
$DIMJUST
 70
     0
  9
$DIMSD1
 70
     0
  9
$DIMSD2
 70
     0
  9
$DIMTOLJ
 70
     0
  9
$DIMTZIN
 70
     0
  9
$DIMALTZ
 70
     0
  9
$DIMALTTZ
 70
     0
  9
$DIMUPT
 70
     0
  9
$DIMDEC
 70
     2
  9
$DIMTDEC
 70
     2
  9
$DIMALTU
 70
     2
  9
$DIMALTTD
 70
     3
  9
$DIMTXSTY
  7
Standard
  9
$DIMAUNIT
 70
     0
  9
$DIMADEC
 70
     2
  9
$DIMALTRND
 40
0.0
  9
$DIMAZIN
 70
     0
  9
$DIMDSEP
 70
    44
  9
$DIMATFIT
 70
     3
  9
$DIMFRAC
 70
     0
  9
$DIMLDRBLK
  1

  9
$DIMLUNIT
 70
     2
  9
$DIMLWD
 70
    -2
  9
$DIMLWE
 70
    -2
  9
$DIMTMOVE
 70
     0
  9
$LUNITS
 70
     2
  9
$LUPREC
 70
     2
  9
$SKETCHINC
 40
1.0
  9
$FILLETRAD
 40
10.0
  9
$AUNITS
 70
     0
  9
$AUPREC
 70
     2
  9
$MENU
  1
.
  9
$ELEVATION
 40
0.0
  9
$PELEVATION
 40
0.0
  9
$THICKNESS
 40
0.0
  9
$LIMCHECK
 70
     0
  9
$CHAMFERA
 40
0.0
  9
$CHAMFERB
 40
0.0
  9
$CHAMFERC
 40
0.0
  9
$CHAMFERD
 40
0.0
  9
$SKPOLY
 70
     0
  9
$TDCREATE
 40
2459935.699881296
  9
$TDUCREATE
 40
2459935.574881296
  9
$TDUPDATE
 40
2459935.69988147
  9
$TDUUPDATE
 40
2459935.57488147
  9
$TDINDWG
 40
0.0000000116
  9
$TDUSRTIMER
 40
0.0000000116
  9
$USRTIMER
 70
     1
  9
$ANGBASE
 50
0.0
  9
$ANGDIR
 70
     0
  9
$PDMODE
 70
     0
  9
$PDSIZE
 40
-1.0
  9
$PLINEWID
 40
0.0
  9
$SPLFRAME
 70
     0
  9
$SPLINETYPE
 70
     6
  9
$SPLINESEGS
 70
     8
  9
$HANDSEED
  5
EE
  9
$SURFTAB1
 70
     6
  9
$SURFTAB2
 70
     6
  9
$SURFTYPE
 70
     6
  9
$SURFU
 70
     6
  9
$SURFV
 70
     6
  9
$UCSBASE
  2

  9
$UCSNAME
  2

  9
$UCSORG
 10
0.0
 20
0.0
 30
0.0
  9
$UCSXDIR
 10
1.0
 20
0.0
 30
0.0
  9
$UCSYDIR
 10
0.0
 20
1.0
 30
0.0
  9
$UCSORTHOREF
  2

  9
$UCSORTHOVIEW
 70
     0
  9
$UCSORGTOP
 10
0.0
 20
0.0
 30
0.0
  9
$UCSORGBOTTOM
 10
0.0
 20
0.0
 30
0.0
  9
$UCSORGLEFT
 10
0.0
 20
0.0
 30
0.0
  9
$UCSORGRIGHT
 10
0.0
 20
0.0
 30
0.0
  9
$UCSORGFRONT
 10
0.0
 20
0.0
 30
0.0
  9
$UCSORGBACK
 10
0.0
 20
0.0
 30
0.0
  9
$PUCSBASE
  2

  9
$PUCSNAME
  2

  9
$PUCSORG
 10
0.0
 20
0.0
 30
0.0
  9
$PUCSXDIR
 10
1.0
 20
0.0
 30
0.0
  9
$PUCSYDIR
 10
0.0
 20
1.0
 30
0.0
  9
$PUCSORTHOREF
  2

  9
$PUCSORTHOVIEW
 70
     0
  9
$PUCSORGTOP
 10
0.0
 20
0.0
 30
0.0
  9
$PUCSORGBOTTOM
 10
0.0
 20
0.0
 30
0.0
  9
$PUCSORGLEFT
 10
0.0
 20
0.0
 30
0.0
  9
$PUCSORGRIGHT
 10
0.0
 20
0.0
 30
0.0
  9
$PUCSORGFRONT
 10
0.0
 20
0.0
 30
0.0
  9
$PUCSORGBACK
 10
0.0
 20
0.0
 30
0.0
  9
$USERI1
 70
     0
  9
$USERI2
 70
     0
  9
$USERI3
 70
     0
  9
$USERI4
 70
     0
  9
$USERI5
 70
     0
  9
$USERR1
 40
0.0
  9
$USERR2
 40
0.0
  9
$USERR3
 40
0.0
  9
$USERR4
 40
0.0
  9
$USERR5
 40
0.0
  9
$WORLDVIEW
 70
     1
  9
$SHADEDGE
 70
     3
  9
$SHADEDIF
 70
    70
  9
$TILEMODE
 70
     1
  9
$MAXACTVP
 70
    64
  9
$PINSBASE
 10
0.0
 20
0.0
 30
0.0
  9
$PLIMCHECK
 70
     0
  9
$PEXTMIN
 10
1.0000000000E+20
 20
1.0000000000E+20
 30
1.0000000000E+20
  9
$PEXTMAX
 10
-1.0000000000E+20
 20
-1.0000000000E+20
 30
-1.0000000000E+20
  9
$PLIMMIN
 10
0.0
 20
0.0
  9
$PLIMMAX
 10
420.0
 20
297.0
  9
$UNITMODE
 70
     0
  9
$VISRETAIN
 70
     1
  9
$PLINEGEN
 70
     0
  9
$PSLTSCALE
 70
     1
  9
$TREEDEPTH
 70
  3020
  9
$CMLSTYLE
  2
Standard
  9
$CMLJUST
 70
     0
  9
$CMLSCALE
 40
20.0
  9
$PROXYGRAPHICS
 70
     1
  9
$MEASUREMENT
 70
     1
  9
$CELWEIGHT
370
    -1
  9
$ENDCAPS
280
     0
  9
$JOINSTYLE
280
     0
  9
$LWDISPLAY
290
     1
  9
$INSUNITS
 70
     4
  9
$HYPERLINKBASE
  1

  9
$STYLESHEET
  1

  9
$XEDIT
290
     1
  9
$CEPSNTYPE
380
     0
  9
$PSTYLEMODE
290
     1
  9
$FINGERPRINTGUID
  2
{c53ef916-25fa-4e07-97e5-938f74574f05}
  9
$VERSIONGUID
  2
{FAEB1C32-E019-11D5-929B-00C0DF256EC4}
  9
$EXTNAMES
290
     1
  9
$PSVPSCALE
 40
0.0
  9
$OLESTARTUP
290
     0
  0
ENDSEC
  0
SECTION
  2
CLASSES
  0
CLASS
  1
ACDBDICTIONARYWDFLT
  2
AcDbDictionaryWithDefault
  3
ObjectDBX Classes
 90
        0
280
     0
281
     0
  0
CLASS
  1
VISUALSTYLE
  2
AcDbVisualStyle
  3
ObjectDBX Classes
 90
     4095
280
     0
281
     0
  0
CLASS
  1
MATERIAL
  2
AcDbMaterial
  3
ObjectDBX Classes
 90
     1153
280
     0
281
     0
  0
CLASS
  1
SCALE
  2
AcDbScale
  3
ObjectDBX Classes
 90
     1153
280
     0
281
     0
  0
CLASS
  1
TABLESTYLE
  2
AcDbTableStyle
  3
ObjectDBX Classes
 90
     4095
280
     0
281
     0
  0
CLASS
  1
MLEADERSTYLE
  2
AcDbMLeaderStyle
  3
ACDB_MLEADERSTYLE_CLASS
 90
     4095
280
     0
281
     0
  0
CLASS
  1
SUN
  2
AcDbSun
  3
SCENEOE
 90
     1153
280
     0
281
     0
  0
CLASS
  1
ACDBPLACEHOLDER
  2
AcDbPlaceHolder
  3
ObjectDBX Classes
 90
        0
280
     0
281
     0
  0
CLASS
  1
LAYOUT
  2
AcDbLayout
  3
ObjectDBX Classes
 90
        0
280
     0
281
     0
  0
ENDSEC
  0
SECTION
  2
TABLES
  0
TABLE
  2
VPORT
  5
8
330
0
100
AcDbSymbolTable
 70
     1
  0
VPORT
  5
29
330
8
100
AcDbSymbolTableRecord
100
AcDbViewportTableRecord
  2
*Active
 70
     0
 10
0.0
 20
0.0
 11
1.0
 21
1.0
 12
139.7
 22
107.95
 13
0.0
 23
0.0
 14
10.0
 24
10.0
 15
10.0
 25
10.0
 16
0.0
 26
0.0
 36
1.0
 17
0.0
 27
0.0
 37
0.0
 40
215.9
 41
1.2941176471
 42
50.0
 43
0.0
 44
0.0
 50
0.0
 51
0.0
 71
     0
 72
  2000
 73
     1
 74
     3
 75
     0
 76
     0
 77
     0
 78
     0
281
     0
 65
     1
110
0.0
120
0.0
130
0.0
111
1.0
121
0.0
131
0.0
112
0.0
122
1.0
132
0.0
 79
     0
146
0.0
  0
ENDTAB
  0
TABLE
  2
LTYPE
  5
5
330
0
100
AcDbSymbolTable
 70
     6
  0
LTYPE
  5
14
330
5
100
AcDbSymbolTableRecord
100
AcDbLinetypeTableRecord
  2
ByBlock
 70
     0
  3

 72
    65
 73
     0
 40
0.0
  0
LTYPE
  5
15
330
5
100
AcDbSymbolTableRecord
100
AcDbLinetypeTableRecord
  2
ByLayer
 70
     0
  3

 72
    65
 73
     0
 40
0.0
  0
LTYPE
  5
16
330
5
100
AcDbSymbolTableRecord
100
AcDbLinetypeTableRecord
  2
Continuous
 70
     0
  3
Solid line
 72
    65
 73
     0
 40
0.0
  0
LTYPE
  5
6E
330
5
100
AcDbSymbolTableRecord
100
AcDbLinetypeTableRecord
  2
HIDDEN
 70
     0
  3
Hidden __ __ __ __ __ __ __ __ __ __ __ __ __ __
 72
    65
 73
     2
 40
1.905
 49
1.27
 74
     0
 49
-0.635
 74
     0
  0
LTYPE
  5
6F
330
5
100
AcDbSymbolTableRecord
100
AcDbLinetypeTableRecord
  2
PHANTOM
 70
     0
  3
Phantom ______  __  __  ______  __  __  ______
 72
    65
 73
     6
 40
12.7
 49
6.35
 74
     0
 49
-1.27
 74
     0
 49
1.27
 74
     0
 49
-1.27
 74
     0
 49
1.27
 74
     0
 49
-1.27
 74
     0
  0
LTYPE
  5
70
330
5
100
AcDbSymbolTableRecord
100
AcDbLinetypeTableRecord
  2
CENTER
 70
     0
  3
Center ____ _ ____ _ ____ _ ____ _ ____ _ ____
 72
    65
 73
     4
 40
10.16
 49
6.35
 74
     0
 49
-1.27
 74
     0
 49
1.27
 74
     0
 49
-1.27
 74
     0
  0
LTYPE
  5
71
330
5
100
AcDbSymbolTableRecord
100
AcDbLinetypeTableRecord
  2
CENTERX2
 70
     0
  3
Center (2x) ________  __  ________  __  _____
 72
    65
 73
     4
 40
20.32
 49
12.7
 74
     0
 49
-2.54
 74
     0
 49
2.54
 74
     0
 49
-2.54
 74
     0
  0
LTYPE
  5
72
330
5
100
AcDbSymbolTableRecord
100
AcDbLinetypeTableRecord
  2
DOT2
 70
     0
  3
Dot (.5x) ........................................
 72
    65
 73
     2
 40
0.635
 49
0.0
 74
     0
 49
-0.635
 74
     0
  0
ENDTAB
  0
TABLE
  2
LAYER
  5
2
330
0
100
AcDbSymbolTable
 70
    17
  0
LAYER
  5
10
330
2
100
AcDbSymbolTableRecord
100
AcDbLayerTableRecord
  2
0
 70
     0
 62
     7
  6
Continuous
370
    -3
390
F
  0
LAYER
  5
73
330
2
100
AcDbSymbolTableRecord
100
AcDbLayerTableRecord
  2
FORMAT
 70
     0
 62
     7
  6
Continuous
370
    -3
390
F
  0
LAYER
  5
74
330
2
100
AcDbSymbolTableRecord
100
AcDbLayerTableRecord
  2
YARDIMCI_GEOMETRI
 70
     0
 62
    -6
  6
Continuous
290
     0
370
    -3
390
F
  0
LAYER
  5
75
330
2
100
AcDbSymbolTableRecord
100
AcDbLayerTableRecord
  2
SAYFA_CERCEVESI
 70
     0
 62
     7
  6
Continuous
370
    25
390
F
  0
LAYER
  5
76
330
2
100
AcDbSymbolTableRecord
100
AcDbLayerTableRecord
  2
ANTET
 70
     0
 62
     7
  6
Continuous
370
    -3
390
F
  0
LAYER
  5
77
330
2
100
AcDbSymbolTableRecord
100
AcDbLayerTableRecord
  2
OLCU
 70
     0
 62
   150
  6
Continuous
370
    -3
390
F
  0
LAYER
  5
78
330
2
100
AcDbSymbolTableRecord
100
AcDbLayerTableRecord
  2
METIN
 70
     0
 62
    96
  6
Continuous
370
    -3
390
F
  0
LAYER
  5
79
330
2
100
AcDbSymbolTableRecord
100
AcDbLayerTableRecord
  2
BALON
 70
     0
 62
     5
  6
Continuous
370
    -3
390
F
  0
LAYER
  5
7A
330
2
100
AcDbSymbolTableRecord
100
AcDbLayerTableRecord
  2
VURGU
 70
     0
 62
     7
  6
Continuous
370
    -3
390
F
  0
LAYER
  5
7B
330
2
100
AcDbSymbolTableRecord
100
AcDbLayerTableRecord
  2
SILIK
 70
     0
 62
     7
  6
Continuous
370
    -3
390
F
  0
LAYER
  5
7C
330
2
100
AcDbSymbolTableRecord
100
AcDbLayerTableRecord
  2
MODEL
 70
     0
 62
     7
  6
Continuous
370
    -3
390
F
  0
LAYER
  5
7D
330
2
100
AcDbSymbolTableRecord
100
AcDbLayerTableRecord
  2
DETAYLANDıRMA
 70
     0
 62
   190
  6
Continuous
370
    -3
390
F
  0
LAYER
  5
7E
330
2
100
AcDbSymbolTableRecord
100
AcDbLayerTableRecord
  2
TOLERANS
 70
     0
 62
   230
  6
Continuous
370
    -3
390
F
  0
LAYER
  5
7F
330
2
100
AcDbSymbolTableRecord
100
AcDbLayerTableRecord
  2
MERKEZ_CIZGILERI
 70
     0
 62
    30
  6
Continuous
370
    -3
390
F
  0
LAYER
  5
80
330
2
100
AcDbSymbolTableRecord
100
AcDbLayerTableRecord
  2
KESIT-DETAY_CIZGILERI
 70
     0
 62
     7
  6
Continuous
370
    -3
390
F
  0
LAYER
  5
81
330
2
100
AcDbSymbolTableRecord
100
AcDbLayerTableRecord
  2
\U+041E\U+0421\U+0415\U+0412\U+042B\U+0415
 70
     0
 62
     7
  6
Continuous
370
    -3
390
F
  0
LAYER
  5
82
330
2
100
AcDbSymbolTableRecord
100
AcDbLayerTableRecord
  2
\U+0412\U+041E\U+0414\U+042F\U+041D\U+042B\U+0415_\U+0417\U+041D\U+0410\U+041A\U+0418
 70
     0
 62
    11
  6
Continuous
370
    -3
390
F
  0
ENDTAB
  0
TABLE
  2
STYLE
  5
3
330
0
100
AcDbSymbolTable
 70
     1
  0
STYLE
  5
11
330
3
100
AcDbSymbolTableRecord
100
AcDbTextStyleTableRecord
  2
Standard
 70
     0
 40
0.0
 41
1.0
 50
0.0
 71
     0
 42
3.5
  3
txt
  4

  0
ENDTAB
  0
TABLE
  2
VIEW
  5
6
330
0
100
AcDbSymbolTable
 70
     0
  0
ENDTAB
  0
TABLE
  2
UCS
  5
7
330
0
100
AcDbSymbolTable
 70
     0
  0
ENDTAB
  0
TABLE
  2
APPID
  5
9
330
0
100
AcDbSymbolTable
 70
     1
  0
APPID
  5
12
330
9
100
AcDbSymbolTableRecord
100
AcDbRegAppTableRecord
  2
ACAD
 70
     0
  0
ENDTAB
  0
TABLE
  2
DIMSTYLE
  5
A
330
0
100
AcDbSymbolTable
 70
     1
100
AcDbDimStyleTable
  0
DIMSTYLE
105
27
330
A
100
AcDbSymbolTableRecord
100
AcDbDimStyleTableRecord
  2
ISO-25
 70
     0
 41
2.5
 42
0.625
 43
3.75
 44
1.25
 73
     0
 74
     0
 77
     1
 78
     8
140
2.5
141
2.5
143
0.0393700787
147
0.625
171
     3
172
     1
178
     0
271
     2
272
     2
274
     3
278
    44
283
     0
284
     8
340
11
  0
ENDTAB
  0
TABLE
  2
BLOCK_RECORD
  5
1
330
0
100
AcDbSymbolTable
 70
     5
  0
BLOCK_RECORD
  5
1F
330
1
100
AcDbSymbolTableRecord
100
AcDbBlockTableRecord
  2
*Model_Space
340
22
  0
BLOCK_RECORD
  5
1B
330
1
100
AcDbSymbolTableRecord
100
AcDbBlockTableRecord
  2
*Paper_Space
340
1E
  0
BLOCK_RECORD
  5
23
330
1
100
AcDbSymbolTableRecord
100
AcDbBlockTableRecord
  2
*Paper_Space0
340
26
  0
BLOCK_RECORD
  5
97
330
1
100
AcDbSymbolTableRecord
100
AcDbBlockTableRecord
  2
SW_CENTERMARKSYMBOL_0
340
0
102
{BLKREFS
331
A2
102
}
  0
BLOCK_RECORD
  5
AC
330
1
100
AcDbSymbolTableRecord
100
AcDbBlockTableRecord
  2
SW_CENTERMARKSYMBOL_1
340
0
102
{BLKREFS
331
B7
102
}
  0
BLOCK_RECORD
  5
BF
330
1
100
AcDbSymbolTableRecord
100
AcDbBlockTableRecord
  2
SW_CENTERMARKSYMBOL_2
340
0
102
{BLKREFS
331
CA
102
}
  0
BLOCK_RECORD
  5
D2
330
1
100
AcDbSymbolTableRecord
100
AcDbBlockTableRecord
  2
SW_CENTERMARKSYMBOL_3
340
0
102
{BLKREFS
331
DD
102
}
  0
ENDTAB
  0
ENDSEC
  0
SECTION
  2
BLOCKS
  0
BLOCK
  5
20
330
1F
100
AcDbEntity
  8
0
100
AcDbBlockBegin
  2
*Model_Space
 70
     0
 10
0.0
 20
0.0
 30
0.0
  3
*Model_Space
  1

  0
ENDBLK
  5
21
330
1F
100
AcDbEntity
  8
0
100
AcDbBlockEnd
  0
BLOCK
  5
1C
330
1B
100
AcDbEntity
 67
     1
  8
0
100
AcDbBlockBegin
  2
*Paper_Space
 70
     0
 10
0.0
 20
0.0
 30
0.0
  3
*Paper_Space
  1

  0
ENDBLK
  5
1D
330
1B
100
AcDbEntity
 67
     1
  8
0
100
AcDbBlockEnd
  0
BLOCK
  5
24
330
23
100
AcDbEntity
  8
0
100
AcDbBlockBegin
  2
*Paper_Space0
 70
     0
 10
0.0
 20
0.0
 30
0.0
  3
*Paper_Space0
  1

  0
ENDBLK
  5
25
330
23
100
AcDbEntity
  8
0
100
AcDbBlockEnd
  0
BLOCK
  5
98
330
97
100
AcDbEntity
  8
0
100
AcDbBlockBegin
  2
SW_CENTERMARKSYMBOL_0
 70
     0
 10
0.0
 20
0.0
 30
0.0
  3
SW_CENTERMARKSYMBOL_0
  1

  0
LINE
  5
9A
330
97
100
AcDbEntity
  8
FORMAT
 62
     0
100
AcDbLine
 10
0.0
 20
0.0
 30
0.0
 11
0.0
 21
2.5
 31
0.0
  0
LINE
  5
9B
330
97
100
AcDbEntity
  8
FORMAT
 62
     0
100
AcDbLine
 10
0.0
 20
0.0
 30
0.0
 11
-2.5
 21
0.0
 31
0.0
  0
LINE
  5
9C
330
97
100
AcDbEntity
  8
FORMAT
 62
     0
100
AcDbLine
 10
0.0
 20
0.0
 30
0.0
 11
0.0
 21
-2.5
 31
0.0
  0
LINE
  5
9D
330
97
100
AcDbEntity
  8
FORMAT
 62
     0
100
AcDbLine
 10
0.0
 20
0.0
 30
0.0
 11
2.5
 21
0.0
 31
0.0
  0
LINE
  5
9E
330
97
100
AcDbEntity
  8
FORMAT
 62
     0
100
AcDbLine
 10
0.0
 20
5.0
 30
0.0
 11
0.0
 21
102.5
 31
0.0
  0
LINE
  5
9F
330
97
100
AcDbEntity
  8
FORMAT
 62
     0
100
AcDbLine
 10
-5.0
 20
0.0
 30
0.0
 11
-102.5
 21
0.0
 31
0.0
  0
LINE
  5
A0
330
97
100
AcDbEntity
  8
FORMAT
 62
     0
100
AcDbLine
 10
0.0
 20
-5.0
 30
0.0
 11
0.0
 21
-102.5
 31
0.0
  0
LINE
  5
A1
330
97
100
AcDbEntity
  8
FORMAT
 62
     0
100
AcDbLine
 10
5.0
 20
0.0
 30
0.0
 11
102.5
 21
0.0
 31
0.0
  0
ENDBLK
  5
99
330
97
100
AcDbEntity
  8
0
100
AcDbBlockEnd
  0
BLOCK
  5
AD
330
AC
100
AcDbEntity
  8
0
100
AcDbBlockBegin
  2
SW_CENTERMARKSYMBOL_1
 70
     0
 10
0.0
 20
0.0
 30
0.0
  3
SW_CENTERMARKSYMBOL_1
  1

  0
LINE
  5
AF
330
AC
100
AcDbEntity
  8
FORMAT
 62
     0
100
AcDbLine
 10
0.0
 20
0.0
 30
0.0
 11
0.0
 21
2.5
 31
0.0
  0
LINE
  5
B0
330
AC
100
AcDbEntity
  8
FORMAT
 62
     0
100
AcDbLine
 10
0.0
 20
0.0
 30
0.0
 11
-2.5
 21
0.0
 31
0.0
  0
LINE
  5
B1
330
AC
100
AcDbEntity
  8
FORMAT
 62
     0
100
AcDbLine
 10
0.0
 20
0.0
 30
0.0
 11
0.0
 21
-2.5
 31
0.0
  0
LINE
  5
B2
330
AC
100
AcDbEntity
  8
FORMAT
 62
     0
100
AcDbLine
 10
0.0
 20
0.0
 30
0.0
 11
2.5
 21
0.0
 31
0.0
  0
LINE
  5
B3
330
AC
100
AcDbEntity
  8
FORMAT
 62
     0
100
AcDbLine
 10
0.0
 20
5.0
 30
0.0
 11
0.0
 21
102.5
 31
0.0
  0
LINE
  5
B4
330
AC
100
AcDbEntity
  8
FORMAT
 62
     0
100
AcDbLine
 10
-5.0
 20
0.0
 30
0.0
 11
-102.5
 21
0.0
 31
0.0
  0
LINE
  5
B5
330
AC
100
AcDbEntity
  8
FORMAT
 62
     0
100
AcDbLine
 10
0.0
 20
-5.0
 30
0.0
 11
0.0
 21
-102.5
 31
0.0
  0
LINE
  5
B6
330
AC
100
AcDbEntity
  8
FORMAT
 62
     0
100
AcDbLine
 10
5.0
 20
0.0
 30
0.0
 11
102.5
 21
0.0
 31
0.0
  0
ENDBLK
  5
AE
330
AC
100
AcDbEntity
  8
0
100
AcDbBlockEnd
  0
BLOCK
  5
C0
330
BF
100
AcDbEntity
  8
0
100
AcDbBlockBegin
  2
SW_CENTERMARKSYMBOL_2
 70
     0
 10
0.0
 20
0.0
 30
0.0
  3
SW_CENTERMARKSYMBOL_2
  1

  0
LINE
  5
C2
330
BF
100
AcDbEntity
  8
FORMAT
 62
     0
100
AcDbLine
 10
0.0
 20
0.0
 30
0.0
 11
0.0
 21
2.5
 31
0.0
  0
LINE
  5
C3
330
BF
100
AcDbEntity
  8
FORMAT
 62
     0
100
AcDbLine
 10
0.0
 20
0.0
 30
0.0
 11
-2.5
 21
0.0
 31
0.0
  0
LINE
  5
C4
330
BF
100
AcDbEntity
  8
FORMAT
 62
     0
100
AcDbLine
 10
0.0
 20
0.0
 30
0.0
 11
0.0
 21
-2.5
 31
0.0
  0
LINE
  5
C5
330
BF
100
AcDbEntity
  8
FORMAT
 62
     0
100
AcDbLine
 10
0.0
 20
0.0
 30
0.0
 11
2.5
 21
0.0
 31
0.0
  0
LINE
  5
C6
330
BF
100
AcDbEntity
  8
FORMAT
 62
     0
100
AcDbLine
 10
0.0
 20
5.0
 30
0.0
 11
0.0
 21
102.5
 31
0.0
  0
LINE
  5
C7
330
BF
100
AcDbEntity
  8
FORMAT
 62
     0
100
AcDbLine
 10
-5.0
 20
0.0
 30
0.0
 11
-102.5
 21
0.0
 31
0.0
  0
LINE
  5
C8
330
BF
100
AcDbEntity
  8
FORMAT
 62
     0
100
AcDbLine
 10
0.0
 20
-5.0
 30
0.0
 11
0.0
 21
-102.5
 31
0.0
  0
LINE
  5
C9
330
BF
100
AcDbEntity
  8
FORMAT
 62
     0
100
AcDbLine
 10
5.0
 20
0.0
 30
0.0
 11
102.5
 21
0.0
 31
0.0
  0
ENDBLK
  5
C1
330
BF
100
AcDbEntity
  8
0
100
AcDbBlockEnd
  0
BLOCK
  5
D3
330
D2
100
AcDbEntity
  8
0
100
AcDbBlockBegin
  2
SW_CENTERMARKSYMBOL_3
 70
     0
 10
0.0
 20
0.0
 30
0.0
  3
SW_CENTERMARKSYMBOL_3
  1

  0
LINE
  5
D5
330
D2
100
AcDbEntity
  8
FORMAT
 62
     0
100
AcDbLine
 10
0.0
 20
0.0
 30
0.0
 11
0.0
 21
2.5
 31
0.0
  0
LINE
  5
D6
330
D2
100
AcDbEntity
  8
FORMAT
 62
     0
100
AcDbLine
 10
0.0
 20
0.0
 30
0.0
 11
-2.5
 21
0.0
 31
0.0
  0
LINE
  5
D7
330
D2
100
AcDbEntity
  8
FORMAT
 62
     0
100
AcDbLine
 10
0.0
 20
0.0
 30
0.0
 11
0.0
 21
-2.5
 31
0.0
  0
LINE
  5
D8
330
D2
100
AcDbEntity
  8
FORMAT
 62
     0
100
AcDbLine
 10
0.0
 20
0.0
 30
0.0
 11
2.5
 21
0.0
 31
0.0
  0
LINE
  5
D9
330
D2
100
AcDbEntity
  8
FORMAT
 62
     0
100
AcDbLine
 10
0.0
 20
5.0
 30
0.0
 11
0.0
 21
102.5
 31
0.0
  0
LINE
  5
DA
330
D2
100
AcDbEntity
  8
FORMAT
 62
     0
100
AcDbLine
 10
-5.0
 20
0.0
 30
0.0
 11
-102.5
 21
0.0
 31
0.0
  0
LINE
  5
DB
330
D2
100
AcDbEntity
  8
FORMAT
 62
     0
100
AcDbLine
 10
0.0
 20
-5.0
 30
0.0
 11
0.0
 21
-102.5
 31
0.0
  0
LINE
  5
DC
330
D2
100
AcDbEntity
  8
FORMAT
 62
     0
100
AcDbLine
 10
5.0
 20
0.0
 30
0.0
 11
102.5
 21
0.0
 31
0.0
  0
ENDBLK
  5
D4
330
D2
100
AcDbEntity
  8
0
100
AcDbBlockEnd
  0
ENDSEC
  0
SECTION
  2
ENTITIES
  0
LINE
  5
83
330
1F
100
AcDbEntity
  8
0
  6
Continuous
 62
     7
370
    25
100
AcDbLine
 10
-24.837562448
 20
100.1606728954
 30
0.0
 11
-24.837562448
 21
-44.8393271046
 31
0.0
  0
LINE
  5
84
330
1F
100
AcDbEntity
  8
0
  6
Continuous
 62
     7
370
    25
100
AcDbLine
 10
175.162437552
 20
-44.8393271046
 30
0.0
 11
175.162437552
 21
100.1606728954
 31
0.0
  0
ARC
  5
85
330
1F
100
AcDbEntity
  8
0
  6
Continuous
 62
     7
370
    25
100
AcDbCircle
 10
175.162437552
 20
100.1606728954
 30
0.0
 40
200.0000000000001
100
AcDbArc
 50
90.0
 51
180.0
  0
LINE
  5
86
330
1F
100
AcDbEntity
  8
0
  6
Continuous
 62
     7
370
    25
100
AcDbLine
 10
320.162437552
 20
300.1606728954
 30
0.0
 11
175.162437552
 21
300.1606728954
 31
0.0
  0
LINE
  5
87
330
1F
100
AcDbEntity
  8
0
  6
Continuous
 62
     7
370
    25
100
AcDbLine
 10
175.162437552
 20
100.1606728954
 30
0.0
 11
320.162437552
 21
100.1606728954
 31
0.0
  0
LINE
  5
88
330
1F
100
AcDbEntity
  8
0
  6
Continuous
 62
     7
370
    25
100
AcDbLine
 10
75.162437552
 20
-44.8393271046
 30
0.0
 11
175.162437552
 21
-44.8393271046
 31
0.0
  0
LINE
  5
89
330
1F
100
AcDbEntity
  8
0
  6
Continuous
 62
     7
370
    25
100
AcDbLine
 10
-24.837562448
 20
-44.8393271046
 30
0.0
 11
75.162437552
 21
-44.8393271046
 31
0.0
  0
LINE
  5
8A
330
1F
100
AcDbEntity
  8
0
  6
Continuous
 62
     7
370
    25
100
AcDbLine
 10
320.162437552
 20
200.1606728954
 30
0.0
 11
320.162437552
 21
100.1606728954
 31
0.0
  0
LINE
  5
8B
330
1F
100
AcDbEntity
  8
0
  6
Continuous
 62
     7
370
    25
100
AcDbLine
 10
320.162437552
 20
300.1606728954
 30
0.0
 11
320.162437552
 21
200.1606728954
 31
0.0
  0
LINE
  5
8C
330
1F
100
AcDbEntity
  8
0
  6
Continuous
 62
     1
370
    25
100
AcDbLine
 10
-24.837562448
 20
100.1606728954
 30
0.0
 11
175.162437552
 21
100.1606728954
 31
0.0
  0
LINE
  5
8D
330
1F
100
AcDbEntity
  8
0
  6
Continuous
 62
     1
370
    25
100
AcDbLine
 10
175.162437552
 20
300.1606728954
 30
0.0
 11
175.162437552
 21
100.1606728954
 31
0.0
  0
LINE
  5
8E
330
1F
100
AcDbEntity
  8
0
  6
Continuous
 62
     7
370
    25
100
AcDbLine
 10
-337.4417889631
 20
200.1606728954
 30
0.0
 11
-337.4417889631
 21
100.1606728954
 31
0.0
  0
LINE
  5
8F
330
1F
100
AcDbEntity
  8
0
  6
Continuous
 62
     7
370
    25
100
AcDbLine
 10
-137.4417889631
 20
100.1606728954
 30
0.0
 11
-137.4417889631
 21
200.1606728954
 31
0.0
  0
LINE
  5
90
330
1F
100
AcDbEntity
  8
0
  6
Continuous
 62
     7
370
    25
100
AcDbLine
 10
-337.4417889631
 20
100.1606728954
 30
0.0
 11
-337.4417889631
 21
-44.8393271046
 31
0.0
  0
LINE
  5
91
330
1F
100
AcDbEntity
  8
0
  6
Continuous
 62
     7
370
    25
100
AcDbLine
 10
-137.4417889631
 20
-44.8393271046
 30
0.0
 11
-137.4417889631
 21
100.1606728954
 31
0.0
  0
CIRCLE
  5
92
330
1F
100
AcDbEntity
  8
0
  6
Continuous
 62
     7
370
    25
100
AcDbCircle
 10
-237.4417889631
 20
200.1606728954
 30
0.0
 40
100.0
  0
CIRCLE
  5
93
330
1F
100
AcDbEntity
  8
0
  6
Continuous
 62
     7
370
    25
100
AcDbCircle
 10
-237.4417889631
 20
200.1606728954
 30
0.0
 40
88.10000000000005
  0
LINE
  5
94
330
1F
100
AcDbEntity
  8
0
  6
Continuous
 62
     7
370
    25
100
AcDbLine
 10
-337.4417889631
 20
-44.8393271046
 30
0.0
 11
-137.4417889631
 21
-44.8393271046
 31
0.0
  0
LINE
  5
95
330
1F
100
AcDbEntity
  8
0
  6
Continuous
 62
     1
370
    25
100
AcDbLine
 10
-237.4417889631
 20
100.1606728954
 30
0.0
 11
-137.4417889631
 21
100.1606728954
 31
0.0
  0
LINE
  5
96
330
1F
100
AcDbEntity
  8
0
  6
Continuous
 62
     1
370
    25
100
AcDbLine
 10
-337.4417889631
 20
100.1606728954
 30
0.0
 11
-237.4417889631
 21
100.1606728954
 31
0.0
  0
INSERT
  5
A2
330
1F
100
AcDbEntity
  8
FORMAT
 62
     7
100
AcDbBlockReference
  2
SW_CENTERMARKSYMBOL_0
 10
-237.4417889631
 20
200.1606728954
 30
0.0
  0
LINE
  5
A3
330
1F
100
AcDbEntity
  8
0
  6
Continuous
 62
     7
370
    25
100
AcDbLine
 10
320.162437552
 20
575.2104982244
 30
0.0
 11
175.162437552
 21
575.2104982244
 31
0.0
  0
LINE
  5
A4
330
1F
100
AcDbEntity
  8
0
  6
Continuous
 62
     7
370
    25
100
AcDbLine
 10
175.162437552
 20
375.2104982244
 30
0.0
 11
320.162437552
 21
375.2104982244
 31
0.0
  0
LINE
  5
A5
330
1F
100
AcDbEntity
  8
0
  6
Continuous
 62
     7
370
    25
100
AcDbLine
 10
175.162437552
 20
575.2104982244
 30
0.0
 11
75.162437552
 21
575.2104982244
 31
0.0
  0
LINE
  5
A6
330
1F
100
AcDbEntity
  8
0
  6
Continuous
 62
     7
370
    25
100
AcDbLine
 10
75.162437552
 20
375.2104982244
 30
0.0
 11
175.162437552
 21
375.2104982244
 31
0.0
  0
CIRCLE
  5
A7
330
1F
100
AcDbEntity
  8
0
  6
Continuous
 62
     7
370
    25
100
AcDbCircle
 10
75.162437552
 20
475.2104982244
 30
0.0
 40
88.10000000000008
  0
CIRCLE
  5
A8
330
1F
100
AcDbEntity
  8
0
  6
Continuous
 62
     7
370
    25
100
AcDbCircle
 10
75.162437552
 20
475.2104982244
 30
0.0
 40
100.0000000000001
  0
LINE
  5
A9
330
1F
100
AcDbEntity
  8
0
  6
Continuous
 62
     7
370
    25
100
AcDbLine
 10
320.162437552
 20
575.2104982244
 30
0.0
 11
320.162437552
 21
375.2104982244
 31
0.0
  0
LINE
  5
AA
330
1F
100
AcDbEntity
  8
0
  6
Continuous
 62
     1
370
    25
100
AcDbLine
 10
175.162437552
 20
475.2104982244
 30
0.0
 11
175.162437552
 21
375.2104982244
 31
0.0
  0
LINE
  5
AB
330
1F
100
AcDbEntity
  8
0
  6
Continuous
 62
     1
370
    25
100
AcDbLine
 10
175.162437552
 20
575.2104982244
 30
0.0
 11
175.162437552
 21
475.2104982244
 31
0.0
  0
INSERT
  5
B7
330
1F
100
AcDbEntity
  8
FORMAT
 62
     7
100
AcDbBlockReference
  2
SW_CENTERMARKSYMBOL_1
 10
75.162437552
 20
475.2104982244
 30
0.0
  0
LINE
  5
B8
330
1F
100
AcDbEntity
  8
0
  6
Continuous
 62
     7
370
    25
100
AcDbLine
 10
432.6926507558
 20
100.1606728954
 30
0.0
 11
432.6926507558
 21
-44.8393271046
 31
0.0
  0
LINE
  5
B9
330
1F
100
AcDbEntity
  8
0
  6
Continuous
 62
     7
370
    25
100
AcDbLine
 10
632.6926507558
 20
-44.8393271046
 30
0.0
 11
632.6926507558
 21
100.1606728954
 31
0.0
  0
LINE
  5
BA
330
1F
100
AcDbEntity
  8
0
  6
Continuous
 62
     7
370
    25
100
AcDbLine
 10
632.6926507558
 20
100.1606728954
 30
0.0
 11
632.6926507558
 21
200.1606728954
 31
0.0
  0
LINE
  5
BB
330
1F
100
AcDbEntity
  8
0
  6
Continuous
 62
     7
370
    25
100
AcDbLine
 10
432.6926507558
 20
200.1606728954
 30
0.0
 11
432.6926507558
 21
100.1606728954
 31
0.0
  0
LINE
  5
BC
330
1F
100
AcDbEntity
  8
0
  6
Continuous
 62
     7
370
    25
100
AcDbLine
 10
432.6926507558
 20
-44.8393271046
 30
0.0
 11
632.6926507558
 21
-44.8393271046
 31
0.0
  0
ARC
  5
BD
330
1F
100
AcDbEntity
  8
0
  6
Continuous
 62
     7
370
    25
100
AcDbCircle
 10
532.6926507558
 20
200.1606728954
 30
0.0
 40
100.0000000000001
100
AcDbArc
 50
0.0
 51
180.0
  0
LINE
  5
BE
330
1F
100
AcDbEntity
  8
0
  6
Continuous
 62
     1
370
    25
100
AcDbLine
 10
432.6926507558
 20
100.1606728954
 30
0.0
 11
632.6926507558
 21
100.1606728954
 31
0.0
  0
INSERT
  5
CA
330
1F
100
AcDbEntity
  8
FORMAT
 62
     7
100
AcDbBlockReference
  2
SW_CENTERMARKSYMBOL_2
 10
532.6926507558
 20
200.1606728954
 30
0.0
  0
LINE
  5
CB
330
1F
100
AcDbEntity
  8
0
  6
Continuous
 62
     7
370
    25
100
AcDbLine
 10
320.162437552
 20
-194.0671726491
 30
0.0
 11
175.162437552
 21
-194.0671726491
 31
0.0
  0
LINE
  5
CC
330
1F
100
AcDbEntity
  8
0
  6
Continuous
 62
     7
370
    25
100
AcDbLine
 10
175.162437552
 20
-394.0671726491
 30
0.0
 11
320.162437552
 21
-394.0671726491
 31
0.0
  0
LINE
  5
CD
330
1F
100
AcDbEntity
  8
0
  6
Continuous
 62
     7
370
    25
100
AcDbLine
 10
75.162437552
 20
-394.0671726491
 30
0.0
 11
175.162437552
 21
-394.0671726491
 31
0.0
  0
LINE
  5
CE
330
1F
100
AcDbEntity
  8
0
  6
Continuous
 62
     7
370
    25
100
AcDbLine
 10
175.162437552
 20
-194.0671726491
 30
0.0
 11
75.162437552
 21
-194.0671726491
 31
0.0
  0
LINE
  5
CF
330
1F
100
AcDbEntity
  8
0
  6
Continuous
 62
     7
370
    25
100
AcDbLine
 10
320.162437552
 20
-194.0671726491
 30
0.0
 11
320.162437552
 21
-394.0671726491
 31
0.0
  0
ARC
  5
D0
330
1F
100
AcDbEntity
  8
0
  6
Continuous
 62
     7
370
    25
100
AcDbCircle
 10
75.162437552
 20
-294.0671726491
 30
0.0
 40
100.0000000000001
100
AcDbArc
 50
90.0
 51
270.0
  0
LINE
  5
D1
330
1F
100
AcDbEntity
  8
0
  6
Continuous
 62
     1
370
    25
100
AcDbLine
 10
175.162437552
 20
-194.0671726491
 30
0.0
 11
175.162437552
 21
-394.0671726491
 31
0.0
  0
INSERT
  5
DD
330
1F
100
AcDbEntity
  8
FORMAT
 62
     7
100
AcDbBlockReference
  2
SW_CENTERMARKSYMBOL_3
 10
75.162437552
 20
-294.0671726491
 30
0.0
  0
LINE
  5
DE
330
1F
100
AcDbEntity
  8
0
  6
Continuous
 62
     7
370
    25
100
AcDbLine
 10
612.6828439511
 20
-76.3622620627
 30
0.0
 11
510.152360679
 21
-135.5518501698
 31
0.0
  0
LINE
  5
DF
330
1F
100
AcDbEntity
  8
0
  6
Continuous
 62
     7
370
    25
100
AcDbLine
 10
610.1442339426
 20
-308.761622646
 30
0.0
 11
712.6747172147
 21
-249.5720345388
 31
0.0
  0
LINE
  5
E0
330
1F
100
AcDbEntity
  8
0
  6
Continuous
 62
     7
370
    25
100
AcDbLine
 10
389.4376191922
 20
-344.6312231876
 30
0.0
 11
389.4376191922
 21
-463.029640911
 31
0.0
  0
LINE
  5
E1
330
1F
100
AcDbEntity
  8
0
  6
Continuous
 62
     7
370
    25
100
AcDbLine
 10
589.4376191922
 20
-463.029640911
 30
0.0
 11
589.4376191922
 21
-344.6312231876
 31
0.0
  0
SPLINE
  5
E2
330
1F
100
AcDbEntity
  8
0
  6
Continuous
 62
     7
370
    25
100
AcDbSpline
210
0.0
220
0.0
230
1.0
 70
     8
 71
     3
 72
    39
 73
    35
 74
     0
 42
0.00000001
 43
0.00000001
 40
0.0
 40
0.0
 40
0.0
 40
0.0
 40
0.0203263980014207
 40
0.0515758297898037
 40
0.0828998758290696
 40
0.1143719857550401
 40
0.1459385056579431
 40
0.1775451390829166
 40
0.209143954114387
 40
0.2407050992190733
 40
0.2722080886549028
 40
0.3036413619370747
 40
0.335001267029875
 40
0.366290805070555
 40
0.3975183469237925
 40
0.4286964474552051
 40
0.4598408137135833
 40
0.4909694346594481
 40
0.5221018502784381
 40
0.5532570866535103
 40
0.5844505259675017
 40
0.6157029362594516
 40
0.6470344366124607
 40
0.6784638094251983
 40
0.7100076753138381
 40
0.7416794824316129
 40
0.7734882779219272
 40
0.8054372603188493
 40
0.837522166734441
 40
0.8697296332149966
 40
0.9020357770989142
 40
0.9344038609251246
 40
0.9667712972345271
 40
1.0
 40
1.0
 40
1.0
 40
1.0
 10
510.1523606790016
 20
-135.551850169827
 30
0.0
 10
508.728718131722
 20
-136.3881467271432
 30
0.0
 10
505.1163936217482
 20
-138.5101502858125
 30
0.0
 10
499.423358068924
 20
-142.1569871275213
 30
0.0
 10
493.090201688652
 20
-146.5351964005031
 30
0.0
 10
486.8743457648688
 20
-151.1818032064006
 30
0.0
 10
480.7805617546823
 20
-156.0832764396482
 30
0.0
 10
474.8242659488124
 20
-161.2255886896384
 30
0.0
 10
469.0179985725787
 20
-166.5926414749617
 30
0.0
 10
463.3720773219492
 20
-172.1695219015628
 30
0.0
 10
457.8944155952813
 20
-177.9424546041264
 30
0.0
 10
452.5914082559833
 20
-183.8987112501868
 30
0.0
 10
447.4682223584123
 20
-190.0266628061489
 30
0.0
 10
442.5291320517946
 20
-196.3157833251635
 30
0.0
 10
437.7778249671406
 20
-202.7565732179037
 30
0.0
 10
433.2176697534667
 20
-209.3404520374183
 30
0.0
 10
428.8519370082299
 20
-216.0596371433823
 30
0.0
 10
424.6839773468055
 20
-222.9070220058103
 30
0.0
 10
420.7174247463153
 20
-229.8759516189479
 30
0.0
 10
416.9564548731828
 20
-236.9597968831351
 30
0.0
 10
413.4055988079432
 20
-244.1522407453216
 30
0.0
 10
410.0697697096198
 20
-251.4472944230738
 30
0.0
 10
406.9542319909789
 20
-258.8395058157133
 30
0.0
 10
404.0648909426472
 20
-266.3233834796407
 30
0.0
 10
401.4083516474946
 20
-273.8931931539642
 30
0.0
 10
398.9919663763343
 20
-281.5427035399684
 30
0.0
 10
396.8238314845714
 20
-289.2648759558903
 30
0.0
 10
394.9128187728683
 20
-297.0514890860758
 30
0.0
 10
393.2682344688158
 20
-304.8927466467782
 30
0.0
 10
391.900525468392
 20
-312.7767760263005
 30
0.0
 10
390.8176105128859
 20
-320.6894317373179
 30
0.0
 10
390.0372033745493
 20
-328.6117533327665
 30
0.0
 10
389.5338876878953
 20
-336.6003056145112
 30
0.0
 10
389.4699883532966
 20
-341.9309206320854
 30
0.0
 10
389.4376191921502
 20
-344.6312231876056
 30
0.0
  0
SPLINE
  5
E3
330
1F
100
AcDbEntity
  8
0
  6
Continuous
 62
     7
370
    25
100
AcDbSpline
210
0.0
220
0.0
230
1.0
 70
     8
 71
     3
 72
    32
 73
    28
 74
     0
 42
0.00000001
 43
0.00000001
 40
0.0
 40
0.0
 40
0.0
 40
0.0
 40
0.0421739410726669
 40
0.0830101478318578
 40
0.1228574111108599
 40
0.1620314770142092
 40
0.2008089374363297
 40
0.2394222782190452
 40
0.2780563051034615
 40
0.3168350923495459
 40
0.3558237688490659
 40
0.3950775280852501
 40
0.4346090882630078
 40
0.4743956801750877
 40
0.5143875121725825
 40
0.5545175626466516
 40
0.5946993353100554
 40
0.6348524825347697
 40
0.6749294946584705
 40
0.7149136365963548
 40
0.7548286468520194
 40
0.7947467344189468
 40
0.8347942257399661
 40
0.8751038692368183
 40
0.9158865405343944
 40
0.9574126967537594
 40
1.0
 40
1.0
 40
1.0
 40
1.0
 10
589.4370796975189
 20
-344.7155410082405
 30
0.0
 10
589.4400866114096
 20
-344.6579180651594
 30
0.0
 10
589.446005061529
 20
-344.5444999471936
 30
0.0
 10
589.5001885067537
 20
-344.0055133652493
 30
0.0
 10
589.6142907198689
 20
-343.2139373746999
 30
0.0
 10
589.8078925027634
 20
-342.1606816183524
 30
0.0
 10
590.0964433960063
 20
-340.8697474858429
 30
0.0
 10
590.4934353958934
 20
-339.3590365005115
 30
0.0
 10
591.0094392676207
 20
-337.6514946657989
 30
0.0
 10
591.6516998430867
 20
-335.7731147251553
 30
0.0
 10
592.4237041859861
 20
-333.7533507771058
 30
0.0
 10
593.3249158060759
 20
-331.6244404323086
 30
0.0
 10
594.3506428448226
 20
-329.4207682674746
 30
0.0
 10
595.4915802657737
 20
-327.1788587314662
 30
0.0
 10
596.7337443621651
 20
-324.9365045734875
 30
0.0
 10
598.0584816807141
 20
-322.7319206807334
 30
0.0
 10
599.4428276128687
 20
-320.6024689512295
 30
0.0
 10
600.8603163523981
 20
-318.5830337116269
 30
0.0
 10
602.282029027483
 20
-316.7045717240704
 30
0.0
 10
603.6775602975208
 20
-314.9931898017111
 30
0.0
 10
605.0157219171651
 20
-313.4697532629007
 30
0.0
 10
606.2655227931313
 20
-312.1494146260277
 30
0.0
 10
607.3956784593848
 20
-311.0425299947232
 30
0.0
 10
608.3779301841814
 20
-310.1524627486516
 30
0.0
 10
609.17844517689
 20
-309.4824853920639
 30
0.0
 10
609.7929202432625
 20
-309.0104313793057
 30
0.0
 10
610.0023767708824
 20
-308.8649012204235
 30
0.0
 10
610.1084262511358
 20
-308.7912181612893
 30
0.0
  0
LWPOLYLINE
  5
E4
330
1F
100
AcDbEntity
  8
0
  6
Continuous
 62
     7
370
    25
100
AcDbPolyline
 90
      107
 70
   128
 43
0.0
 10
591.9681024642
 20
-122.1467427096
 10
592.0922893821
 20
-127.055673331
 10
592.4644139247
 20
-132.090744318
 10
593.0831689911
 20
-137.2342698001
 10
593.9463811814
 20
-142.4681829564
 10
595.0510184313
 20
-147.7740994761
 10
596.3932006623
 20
-153.1333821339
 10
597.9682134103
 20
-158.527206254
 10
599.7705243855
 20
-163.9366258325
 10
601.793802905
 20
-169.3426400858
 10
604.0309421292
 20
-174.7262601917
 10
606.4740840249
 20
-180.0685759883
 10
609.1146469671
 20
-185.3508223963
 10
611.9433558822
 20
-190.5544453327
 10
614.9502748269
 20
-195.6611668822
 10
618.1248418889
 20
-200.6530494989
 10
621.4559062854
 20
-205.5125590133
 10
624.9317675314
 20
-210.2226262209
 10
628.5402165374
 20
-214.7667068388
 10
632.2685784946
 20
-219.1288396181
 10
636.1037573959
 20
-223.2937024084
 10
640.0322820353
 20
-227.2466659771
 10
644.0403533267
 20
-230.9738453957
 10
648.1138927737
 20
-234.4621488105
 10
652.2385919203
 20
-237.6993234284
 10
656.3999626104
 20
-240.6739985556
 10
660.5833878776
 20
-243.3757255372
 10
664.7741732881
 20
-245.7950144587
 10
668.9575985553
 20
-247.9233674794
 10
673.1189692454
 20
-249.7533086818
 10
677.243668392
 20
-251.2784103307
 10
681.317207839
 20
-252.4933154508
 10
685.3252791305
 20
-253.3937566437
 10
689.2538037698
 20
-253.9765710768
 10
693.0889826711
 20
-254.2397115932
 10
696.8173446283
 20
-254.1822539022
 10
700.4257936343
 20
-253.804399826
 10
703.9016548803
 20
-253.1074765908
 10
707.2327192768
 20
-252.093932165
 10
710.4072863388
 20
-250.7673266603
 10
713.4142052835
 20
-249.132319827
 10
716.2429141986
 20
-247.1946546861
 10
718.8834771408
 20
-244.9611373571
 10
721.3266190365
 20
-242.4396131511
 10
723.5637582607
 20
-239.6389390138
 10
725.5870367802
 20
-236.5689524154
 10
727.3893477554
 20
-233.2404367957
 10
728.9643605034
 20
-229.6650836871
 10
730.3065427344
 20
-225.8554516479
 10
731.4111799844
 20
-221.8249221497
 10
732.2743921746
 20
-217.5876525741
 10
732.893147241
 20
-213.1585264852
 10
733.2652717836
 20
-208.5531013499
 10
733.3894587015
 20
-203.7875538919
 10
733.2652717836
 20
-198.8786232705
 10
732.893147241
 20
-193.8435522835
 10
732.2743921746
 20
-188.7000268014
 10
731.4111799844
 20
-183.4661136451
 10
730.3065427344
 20
-178.1601971254
 10
728.9643605034
 20
-172.8009144676
 10
727.3893477554
 20
-167.4070903475
 10
725.5870367802
 20
-161.997670769
 10
723.5637582607
 20
-156.5916565156
 10
721.3266190365
 20
-151.2080364098
 10
718.8834771408
 20
-145.8657206132
 10
716.2429141986
 20
-140.5834742052
 10
713.4142052835
 20
-135.3798512688
 10
710.4072863388
 20
-130.2731297193
 10
707.2327192768
 20
-125.2812471026
 10
703.9016548803
 20
-120.4217375882
 10
700.4257936343
 20
-115.7116703806
 10
696.8173446283
 20
-111.1675897627
 10
693.0889826711
 20
-106.8054569834
 10
689.2538037698
 20
-102.6405941931
 10
685.3252791305
 20
-98.6876306244
 10
681.317207839
 20
-94.9604512058
 10
677.243668392
 20
-91.472147791
 10
673.1189692454
 20
-88.2349731731
 10
668.9575985553
 20
-85.2602980459
 10
664.7741732881
 20
-82.5585710643
 10
660.5833878776
 20
-80.1392821428
 10
656.3999626104
 20
-78.0109291221
 10
652.2385919203
 20
-76.1809879197
 10
648.1138927737
 20
-74.6558862708
 10
644.0403533267
 20
-73.4409811507
 10
640.0322820352
 20
-72.5405399578
 10
636.1037573959
 20
-71.9577255247
 10
632.2685784946
 20
-71.6945850083
 10
628.5402165374
 20
-71.7520426993
 10
624.9317675314
 20
-72.1298967755
 10
621.4559062854
 20
-72.8268200107
 10
618.1248418889
 20
-73.8403644365
 10
614.9502748269
 20
-75.1669699411
 10
611.9433558822
 20
-76.8019767745
 10
609.1146469671
 20
-78.7396419154
 10
606.4740840249
 20
-80.9731592444
 10
604.0309421292
 20
-83.4946834504
 10
601.793802905
 20
-86.2953575876
 10
599.7705243855
 20
-89.3653441861
 10
597.9682134103
 20
-92.6938598058
 10
596.3932006623
 20
-96.2692129144
 10
595.0510184313
 20
-100.0788449536
 10
593.9463811814
 20
-104.1093744518
 10
593.0831689911
 20
-108.3466440274
 10
592.4644139247
 20
-112.7757701163
 10
592.0922893821
 20
-117.3811952516
 10
591.9681024642
 20
-122.1467427096
  0
LWPOLYLINE
  5
E5
330
1F
100
AcDbEntity
  8
0
  6
Continuous
 62
     7
370
    25
100
AcDbPolyline
 90
      100
 70
   128
 43
0.0
 10
600.3826731603
 20
-127.004370975
 10
600.5080953791
 20
-122.5142336001
 10
600.8838570044
 20
-118.1869858351
 10
601.5084449769
 20
-114.0400519794
 10
602.3793443012
 20
-110.0901302722
 10
603.493048173
 20
-106.3531256539
 10
604.8450721
 20
-102.8440857232
 10
606.4299719591
 20
-99.5771401455
 10
608.2413659178
 20
-96.5654437576
 10
610.271960132
 20
-93.8211235977
 10
612.5135781155
 20
-91.3552300747
 10
614.9571936639
 20
-89.1776924714
 10
617.5929671997
 20
-87.2972789632
 10
620.4102853933
 20
-85.7215613116
 10
623.3978038986
 20
-84.4568843754
 10
626.543493033
 20
-83.5083405624
 10
629.8346862167
 20
-82.8797493237
 10
633.2581309763
 20
-82.5736417742
 10
636.800042308
 20
-82.5912505012
 10
640.4461581849
 20
-82.9325046005
 10
644.1817969855
 20
-83.5960299622
 10
647.9919166105
 20
-84.5791548039
 10
651.8611750532
 20
-85.8779204288
 10
655.7739921753
 20
-87.4870971663
 10
659.7146124433
 20
-89.4002054294
 10
663.6671683703
 20
-91.6095418065
 10
667.6157444084
 20
-94.1062100797
 10
671.5444410357
 20
-96.8801570471
 10
675.4374387775
 20
-99.9202130033
 10
679.2790619058
 20
-103.2141367159
 10
683.0538415601
 20
-106.7486647167
 10
686.7465780352
 20
-110.5095647089
 10
690.3424019845
 20
-114.4816928757
 10
693.8268342941
 20
-118.6490548589
 10
697.185844385
 20
-122.9948701625
 10
700.4059067089
 20
-127.5016397222
 10
703.4740552115
 20
-132.1512163677
 10
706.3779355416
 20
-136.9248778947
 10
709.1058547981
 20
-141.8034024532
 10
711.6468286128
 20
-146.7671459467
 10
713.990625381
 20
-151.7961211319
 10
716.1278074605
 20
-156.8700781008
 10
718.0497691732
 20
-161.9685858194
 10
719.7487714577
 20
-167.0711143968
 10
721.2179730315
 20
-172.1571177511
 10
722.4514579383
 20
-177.206116342
 10
723.4442593698
 20
-182.1977796342
 10
724.192379665
 20
-187.1120079613
 10
724.6928064076
 20
-191.9290134603
 10
724.9435245556
 20
-196.6293997503
 10
724.9435245556
 20
-201.1942400345
 10
724.6928064076
 20
-205.6051533123
 10
724.192379665
 20
-209.8443783928
 10
723.4442593698
 20
-213.8948454127
 10
722.4514579383
 20
-217.740244571
 10
721.2179730315
 20
-221.3650918024
 10
719.7487714577
 20
-224.7547911265
 10
718.0497691732
 20
-227.8956934205
 10
716.1278074605
 20
-230.7751513795
 10
713.990625381
 20
-233.3815704425
 10
711.6468286128
 20
-235.7044554798
 10
709.1058547981
 20
-237.7344530533
 10
706.3779355416
 20
-239.4633890792
 10
703.4740552115
 20
-240.8843017424
 10
700.4059067089
 20
-241.991469529
 10
697.185844385
 20
-242.7804342652
 10
693.8268342941
 20
-243.2480190684
 10
690.3424019845
 20
-243.3923411397
 10
686.7465780352
 20
-243.212819345
 10
683.0538415601
 20
-242.7101765552
 10
679.2790619058
 20
-241.8864367354
 10
675.4374387775
 20
-240.7449167951
 10
671.5444410357
 20
-239.2902132323
 10
667.6157444084
 20
-237.5281836248
 10
663.6671683703
 20
-235.4659230439
 10
659.7146124433
 20
-233.1117354851
 10
655.7739921753
 20
-230.4751004308
 10
651.8611750532
 20
-227.5666346797
 10
647.9919166105
 20
-224.3980495971
 10
644.1817969855
 20
-220.9821039565
 10
640.4461581849
 20
-217.3325525655
 10
636.800042308
 20
-213.4640908795
 10
633.2581309763
 20
-209.3922958283
 10
629.8346862167
 20
-205.1335630935
 10
626.543493033
 20
-200.7050410887
 10
623.3978038986
 20
-196.124561909
 10
620.4102853933
 20
-191.4105695274
 10
617.5929671997
 20
-186.5820455274
 10
614.9571936639
 20
-181.658432671
 10
612.5135781155
 20
-176.6595566095
 10
610.271960132
 20
-171.6055460523
 10
608.2413659178
 20
-166.5167517163
 10
606.4299719591
 20
-161.4136643801
 10
604.8450721
 20
-156.3168323753
 10
603.493048173
 20
-151.2467788457
 10
602.3793443012
 20
-146.2239191071
 10
601.5084449769
 20
-141.2684784432
 10
600.8838570044
 20
-136.4004106643
 10
600.5080953791
 20
-131.6393177613
 10
600.3826731603
 20
-127.004370975
  0
LINE
  5
E6
330
1F
100
AcDbEntity
  8
0
  6
Continuous
 62
     7
370
    25
100
AcDbLine
 10
559.2937647754
 20
-303.3115436544
 30
0.0
 11
560.1482973108
 21
-303.8108175965
 31
0.0
  0
LWPOLYLINE
  5
E7
330
1F
100
AcDbEntity
  8
0
  6
Continuous
 62
     7
370
    25
100
AcDbPolyline
 90
      107
 70
   128
 43
0.0
 10
418.7269410735
 20
-422.2092353199
 10
423.0400729619
 20
-419.8627004435
 10
427.5864286531
 20
-417.6677910199
 10
432.3500389069
 20
-415.6322167484
 10
437.3141713684
 20
-413.7631276579
 10
442.4613893415
 20
-412.0670889921
 10
447.7736130352
 20
-410.5500581485
 10
453.2321830701
 20
-409.2173637534
 10
458.8179260198
 20
-408.0736869444
 10
464.5112217585
 20
-407.1230449281
 10
470.2920723773
 20
-406.3687768691
 10
476.1401724275
 20
-405.8135321616
 10
482.0349802445
 20
-405.4592611228
 10
487.9557901008
 20
-405.3072081426
 10
493.8818049358
 20
-405.3579073128
 10
499.7922094063
 20
-405.6111805506
 10
505.666243001
 20
-406.0661382246
 10
511.4832729627
 20
-406.7211822793
 10
517.2228667615
 20
-407.5740118486
 10
522.8648638649
 20
-408.6216313375
 10
528.3894465522
 20
-409.8603609443
 10
533.7772095252
 20
-411.2858495862
 10
539.0092280702
 20
-412.8930901823
 10
544.0671245309
 20
-414.6764372414
 10
548.9331328618
 20
-416.6296266919
 10
553.590161031
 20
-418.7457978846
 10
558.0218510573
 20
-421.017517691
 10
562.2126364678
 20
-423.4368066125
 10
566.1477969759
 20
-425.9951668084
 10
569.8135101868
 20
-428.6836119453
 10
573.1969001492
 20
-431.4926987616
 10
576.2860825824
 20
-434.4125602375
 10
579.0702066205
 20
-437.4329402528
 10
581.5394929262
 20
-440.5432296128
 10
583.6852680413
 20
-443.7325033126
 10
585.4999948525
 20
-446.989558912
 10
586.9772990657
 20
-450.3029558844
 10
588.1119915959
 20
-453.6610558021
 10
588.9000867942
 20
-457.0520632167
 10
589.3388164476
 20
-460.464067091
 10
589.4266395021
 20
-463.8850826369
 10
589.163247476
 20
-467.3030934125
 10
588.5495655434
 20
-470.7060935304
 10
587.5877492846
 20
-474.0821298284
 10
586.2811771141
 20
-477.4193438561
 10
584.6344384144
 20
-480.7060135273
 10
582.6533174152
 20
-483.930594295
 10
580.3447728763
 20
-487.0817597017
 10
577.7169136446
 20
-490.1484411639
 10
574.7789701714
 20
-493.1198668512
 10
571.5412620905
 20
-495.9855995224
 10
568.0151619694
 20
-498.7355731871
 10
564.2130553634
 20
-501.3601284624
 10
560.1482973108
 20
-503.8500465022
 10
555.8351654224
 20
-506.1965813786
 10
551.2888097312
 20
-508.3914908022
 10
546.5251994774
 20
-510.4270650737
 10
541.5610670159
 20
-512.2961541642
 10
536.4138490428
 20
-513.99219283
 10
531.1016253491
 20
-515.5092236736
 10
525.6430553142
 20
-516.8419180687
 10
520.0573123645
 20
-517.9855948777
 10
514.3640166258
 20
-518.936236894
 10
508.583166007
 20
-519.690504953
 10
502.7350659568
 20
-520.2457496605
 10
496.8402581398
 20
-520.6000206993
 10
490.9194482835
 20
-520.7520736794
 10
484.9934334485
 20
-520.7013745093
 10
479.083028978
 20
-520.4481012714
 10
473.2089953833
 20
-519.9931435975
 10
467.3919654216
 20
-519.3380995428
 10
461.6523716228
 20
-518.4852699735
 10
456.0103745194
 20
-517.4376504846
 10
450.4857918321
 20
-516.1989208777
 10
445.0980288591
 20
-514.7734322358
 10
439.8660103141
 20
-513.1661916397
 10
434.8081138534
 20
-511.3828445807
 10
429.9421055225
 20
-509.4296551302
 10
425.2850773533
 20
-507.3134839375
 10
420.853387327
 20
-505.0417641311
 10
416.6626019165
 20
-502.6224752096
 10
412.7274414084
 20
-500.0641150137
 10
409.0617281975
 20
-497.3756698767
 10
405.6783382351
 20
-494.5665830604
 10
402.5891558019
 20
-491.6467215846
 10
399.8050317638
 20
-488.6263415692
 10
397.3357454581
 20
-485.5160522093
 10
395.189970343
 20
-482.3267785095
 10
393.3752435318
 20
-479.0697229101
 10
391.8979393186
 20
-475.7563259377
 10
390.7632467884
 20
-472.3982260199
 10
389.9751515901
 20
-469.0072186053
 10
389.5364219367
 20
-465.5952147311
 10
389.4485988822
 20
-462.1741991852
 10
389.7119909083
 20
-458.7561884096
 10
390.3256728409
 20
-455.3531882917
 10
391.2874890997
 20
-451.9771519936
 10
392.5940612702
 20
-448.639937966
 10
394.2407999699
 20
-445.3532682948
 10
396.2219209691
 20
-442.1286875271
 10
398.530465508
 20
-438.9775221204
 10
401.1583247397
 20
-435.9108406581
 10
404.0962682129
 20
-432.9394149709
 10
407.3339762938
 20
-430.0736822997
 10
410.8600764149
 20
-427.323708635
 10
414.6621830209
 20
-424.6991533597
 10
418.7269410735
 20
-422.2092353199
  0
LWPOLYLINE
  5
E8
330
1F
100
AcDbEntity
  8
0
  6
Continuous
 62
     7
370
    25
100
AcDbPolyline
 90
      100
 70
   128
 43
0.0
 10
427.1415117696
 20
-427.0668635852
 10
423.3158706763
 20
-429.4201685907
 10
419.756478527
 20
-431.908807079
 10
416.4776677377
 20
-434.5227581811
 10
413.4926409221
 20
-437.2514964387
 10
410.8134177297
 20
-440.0840341859
 10
408.4507864466
 20
-443.0089657928
 10
406.4142605552
 20
-446.0145135923
 10
404.7120404265
 20
-449.0885753041
 10
403.3509803001
 20
-452.2187727667
 10
402.3365606848
 20
-455.3925017797
 10
401.6728662903
 20
-458.5969828564
 10
401.3625695797
 20
-461.8193126827
 10
401.4069200084
 20
-465.0465160736
 10
401.8057389927
 20
-468.26559822
 10
402.5574206296
 20
-471.4635970144
 10
403.6589381622
 20
-474.6276352442
 10
405.1058561683
 20
-477.7449724443
 10
406.8923484197
 20
-480.803056198
 10
409.0112213426
 20
-483.7895726814
 10
411.4539429837
 20
-486.6924962466
 10
414.2106773651
 20
-489.500137845
 10
417.2703240903
 20
-492.2011920949
 10
420.6205630419
 20
-494.784782804
 10
424.24790399
 20
-497.2405067646
 10
428.137740913
 20
-499.5584756428
 10
432.2744108104
 20
-501.7293557963
 10
436.6412567725
 20
-503.7444058567
 10
441.220695052
 20
-505.5955119287
 10
445.9942858671
 20
-507.2752202614
 10
450.9428076524
 20
-508.7767672623
 10
456.0463344573
 20
-510.0941067316
 10
461.2843161806
 20
-511.2219342081
 10
466.6356613186
 20
-512.1557083287
 10
472.0788218932
 20
-512.8916691145
 10
477.5918802177
 20
-513.4268531113
 10
483.1526371523
 20
-513.7591053219
 10
488.7387014913
 20
-513.8870878839
 10
494.3275801252
 20
-513.8102854569
 10
499.8967686123
 20
-513.5290072969
 10
505.4238417961
 20
-513.044386012
 10
510.8865441038
 20
-512.3583730009
 10
516.2628791611
 20
-511.4737305959
 10
521.5311983644
 20
-510.3940209399
 10
526.6702880515
 20
-509.1235916424
 10
531.6594549222
 20
-507.6675582739
 10
536.4786093623
 20
-506.0317837669
 10
541.1083463379
 20
-504.2228548079
 10
545.530023532
 20
-502.2480553154
 10
549.7258364114
 20
-500.1153371101
 10
553.6788899184
 20
-497.8332878953
 10
557.3732665017
 20
-495.4110966778
 10
560.7940902108
 20
-492.8585167668
 10
563.9275865959
 20
-490.1858265006
 10
566.761138173
 20
-487.4037878597
 10
569.2833352301
 20
-484.5236031317
 10
571.4840217697
 20
-481.556869804
 10
573.3543364039
 20
-478.5155338646
 10
574.8867480358
 20
-475.4118417
 10
576.0750861845
 20
-472.258290783
 10
576.9145658319
 20
-469.0675793501
 10
577.4018066895
 20
-465.8525552702
 10
577.5348468105
 20
-462.6261643106
 10
577.3131504893
 20
-459.4013980088
 10
576.7376104187
 20
-456.1912413605
 10
575.8105440953
 20
-453.0086205337
 10
574.5356844882
 20
-449.8663508192
 10
572.918165007
 20
-446.7770850279
 10
570.9644988317
 20
-443.7532625429
 10
568.6825526865
 20
-440.8070592301
 10
566.0815151631
 20
-437.9503384104
 10
563.1718597216
 20
-435.1946030903
 10
559.9653025176
 20
-432.5509496434
 10
556.4747552251
 20
-430.0300231288
 10
552.7142730462
 20
-427.6419744281
 10
548.6989981152
 20
-425.3964193705
 10
544.4450985273
 20
-423.3024000136
 10
539.9697032347
 20
-421.3683482343
 10
535.2908330746
 20
-419.6020517765
 10
530.4273282058
 20
-418.0106228927
 10
525.3987722458
 20
-416.6004697052
 10
520.2254134148
 20
-415.3772704033
 10
514.9280830028
 20
-414.3459503788
 10
509.5281114898
 20
-413.5106623935
 10
504.0472426551
 20
-412.8747698573
 10
498.507546023
 20
-412.440833285
 10
492.9313279968
 20
-412.2105999859
 10
487.3410420383
 20
-412.1849970284
 10
481.7591982561
 20
-412.3641275066
 10
476.2082727649
 20
-412.7472701251
 10
470.7106171825
 20
-413.3328821039
 10
465.2883686277
 20
-414.1186053903
 10
459.9633605816
 20
-415.1012761539
 10
454.7570349721
 20
-416.2769375263
 10
449.690355835
 20
-417.6408555342
 10
444.7837248988
 20
-419.1875381611
 10
440.0568994347
 20
-420.910757462
 10
435.5289127005
 20
-422.803574641
 10
431.2179973005
 20
-424.8583679912
 10
427.1415117696
 20
-427.0668635852
  0
LWPOLYLINE
  5
E9
330
1F
100
AcDbEntity
  8
0
  6
Continuous
 62
     1
370
    25
100
AcDbPolyline
 90
       15
 70
   128
 43
0.0
 10
560.1482973108
 20
-303.8108175965
 10
564.3372422813
 20
-306.0856375855
 10
568.5114734299
 20
-308.0656542481
 10
572.6563286173
 20
-309.7439127035
 10
576.7572488886
 20
-311.1145180078
 10
580.7998296117
 20
-312.1726558599
 10
584.7698710744
 20
-312.9146095118
 10
588.6534283613
 20
-313.3377728244
 10
592.4368603357
 20
-313.4406594212
 10
596.1068775549
 20
-313.222907909
 10
599.6505889496
 20
-312.6852831482
 10
603.0555471041
 20
-311.8296735652
 10
606.3097919789
 20
-310.65908452
 10
609.4018929201
 20
-309.1776277493
 10
610.1442339426
 20
-308.761622646
  0
LWPOLYLINE
  5
EA
330
1F
100
AcDbEntity
  8
0
  6
Continuous
 62
     1
370
    25
100
AcDbPolyline
 90
       41
 70
   128
 43
0.0
 10
510.152360679
 20
-135.5518501698
 10
507.9756058113
 20
-136.9229658919
 10
505.2397684027
 20
-139.0094734448
 10
502.6967992045
 20
-141.3880387913
 10
500.3556304888
 20
-144.050307134
 10
498.224485696
 20
-146.9869271582
 10
496.3108505499
 20
-150.1875838788
 10
494.6214467638
 20
-153.6410348726
 10
493.1622084301
 20
-157.3351497668
 10
491.9382611767
 20
-161.2569528483
 10
490.9539041629
 20
-165.3926686406
 10
490.2125949787
 20
-169.7277702912
 10
489.7169374995
 20
-174.2470305974
 10
489.4686727404
 20
-178.9345754927
 10
489.4686727404
 20
-183.7739398045
 10
489.7169374995
 20
-188.7481250893
 10
490.2125949787
 20
-193.8396593397
 10
490.9539041629
 20
-199.0306583562
 10
491.9382611767
 20
-204.3028885652
 10
493.1622084301
 20
-209.637831066
 10
494.6214467638
 20
-215.0167466783
 10
496.3108505499
 20
-220.420741765
 10
498.224485696
 20
-225.8308345961
 10
500.3556304888
 20
-231.2280220234
 10
502.6967992045
 20
-236.5933462291
 10
505.2397684027
 20
-241.9079613163
 10
507.9756058113
 20
-247.1531995057
 10
510.8947017015
 20
-252.3106367067
 10
513.9868026427
 20
-257.3621572332
 10
517.2410475175
 20
-262.2900174351
 10
520.646005672
 20
-267.0769080236
 10
524.1897170667
 20
-271.7060148711
 10
527.8597342859
 20
-276.1610780708
 10
531.6431662603
 20
-280.4264490508
 10
535.5267235472
 20
-284.48714554
 10
539.4967650099
 20
-288.3289041938
 10
543.539345733
 20
-291.9382306949
 10
547.6402660043
 20
-295.3024471523
 10
551.7851211917
 20
-298.4097366329
 10
555.9593523403
 20
-301.2491846693
 10
559.2937647754
 20
-303.3115436544
  0
LWPOLYLINE
  5
EB
330
1F
100
AcDbEntity
  8
0
  6
Continuous
 62
     1
370
    25
100
AcDbPolyline
 90
       15
 70
   128
 43
0.0
 10
560.1482973108
 20
-303.8108175965
 10
564.2130553634
 20
-306.3007356363
 10
568.0151619694
 20
-308.9252909116
 10
571.5412620905
 20
-311.6752645762
 10
574.7789701714
 20
-314.5409972474
 10
577.7169136446
 20
-317.5124229347
 10
580.3447728763
 20
-320.5791043969
 10
582.6533174152
 20
-323.7302698036
 10
584.6344384144
 20
-326.9548505714
 10
586.2811771141
 20
-330.2415202426
 10
587.5877492846
 20
-333.5787342702
 10
588.5495655434
 20
-336.9547705683
 10
589.163247476
 20
-340.3577706861
 10
589.4266395021
 20
-343.7757814617
 10
589.4376191922
 20
-344.6312231876
  0
LWPOLYLINE
  5
EC
330
1F
100
AcDbEntity
  8
0
  6
Continuous
 62
     1
370
    25
100
AcDbPolyline
 90
       41
 70
   128
 43
0.0
 10
389.4376191922
 20
-344.6312231876
 10
389.5364219367
 20
-342.0656493676
 10
389.9751515901
 20
-338.6536454933
 10
390.7632467884
 20
-335.2626380787
 10
391.8979393186
 20
-331.904538161
 10
393.3752435318
 20
-328.5911411886
 10
395.189970343
 20
-325.3340855892
 10
397.3357454581
 20
-322.1448118894
 10
399.8050317638
 20
-319.0345225294
 10
402.5891558019
 20
-316.014142514
 10
405.6783382351
 20
-313.0942810382
 10
409.0617281975
 20
-310.2851942219
 10
412.7274414084
 20
-307.596749085
 10
416.6626019165
 20
-305.038388889
 10
420.853387327
 20
-302.6190999676
 10
425.2850773533
 20
-300.3473801612
 10
429.9421055225
 20
-298.2312089685
 10
434.8081138534
 20
-296.278019518
 10
439.8660103141
 20
-294.4946724589
 10
445.0980288591
 20
-292.8874318628
 10
450.4857918321
 20
-291.4619432209
 10
456.0103745194
 20
-290.223213614
 10
461.6523716228
 20
-289.1755941251
 10
467.3919654216
 20
-288.3227645559
 10
473.2089953833
 20
-287.6677205012
 10
479.083028978
 20
-287.2127628272
 10
484.9934334485
 20
-286.9594895894
 10
490.9194482835
 20
-286.9087904192
 10
496.8402581398
 20
-287.0608433993
 10
502.7350659568
 20
-287.4151144381
 10
508.583166007
 20
-287.9703591457
 10
514.3640166258
 20
-288.7246272046
 10
520.0573123645
 20
-289.675269221
 10
525.6430553142
 20
-290.81894603
 10
531.1016253491
 20
-292.1516404251
 10
536.4138490428
 20
-293.6686712686
 10
541.5610670159
 20
-295.3647099345
 10
546.5251994774
 20
-297.233799025
 10
551.2888097312
 20
-299.2693732964
 10
555.8351654224
 20
-301.4642827201
 10
560.1482973108
 20
-303.8108175965
  0
ENDSEC
  0
SECTION
  2
OBJECTS
  0
DICTIONARY
  5
C
330
0
100
AcDbDictionary
281
     1
  3
ACAD_GROUP
350
D
  3
ACAD_LAYOUT
350
1A
  3
ACAD_MLINESTYLE
350
17
  3
ACAD_PLOTSETTINGS
350
19
  3
ACAD_PLOTSTYLENAME
350
E
  3
ACAD_SCALELIST
350
47
  3
DWGPROPS
350
ED
  0
DICTIONARY
  5
D
102
{ACAD_REACTORS
330
C
102
}
330
C
100
AcDbDictionary
281
     1
  0
DICTIONARY
  5
1A
102
{ACAD_REACTORS
330
C
102
}
330
C
100
AcDbDictionary
281
     1
  3
Layout1
350
1E
  3
Layout2
350
26
  3
Model
350
22
  0
DICTIONARY
  5
17
102
{ACAD_REACTORS
330
C
102
}
330
C
100
AcDbDictionary
281
     1
  3
Standard
350
18
  0
DICTIONARY
  5
19
102
{ACAD_REACTORS
330
C
102
}
330
C
100
AcDbDictionary
281
     1
  0
ACDBDICTIONARYWDFLT
  5
E
102
{ACAD_REACTORS
330
C
102
}
330
C
100
AcDbDictionary
281
     1
  3
Normal
350
F
100
AcDbDictionaryWithDefault
340
F
  0
DICTIONARY
  5
47
102
{ACAD_REACTORS
330
C
102
}
330
C
100
AcDbDictionary
281
     1
  3
A0
350
48
  3
A1
350
49
  3
A2
350
4A
  3
A3
350
4B
  3
A4
350
4C
  3
A5
350
4D
  3
A6
350
4E
  3
A7
350
4F
  3
A8
350
50
  3
A9
350
51
  3
B0
350
52
  3
B1
350
53
  3
B2
350
54
  3
B3
350
55
  3
B4
350
56
  3
B5
350
57
  3
B6
350
58
  3
B7
350
59
  3
B8
350
5A
  3
B9
350
5B
  3
C0
350
5C
  3
C1
350
5D
  3
C2
350
5E
  3
C3
350
5F
  3
C4
350
60
  3
C5
350
61
  3
C6
350
62
  3
C7
350
63
  3
C8
350
64
  3
C9
350
65
  3
D0
350
66
  3
D1
350
67
  3
D2
350
68
  0
XRECORD
  5
ED
102
{ACAD_REACTORS
330
C
102
}
330
C
100
AcDbXrecord
280
     1
  1
DWGPROPS COOKIE
  2

  3

  4

  6

  7

  8
b.kav
  9

300
=
301
=
302
=
303
=
304
=
305
=
306
=
307
=
308
=
309
=
 40
0.0
 41
2459935.574881296
 42
2459935.57488147
  1

 90
        0
  0
LAYOUT
  5
1E
102
{ACAD_REACTORS
330
1A
102
}
330
1A
100
AcDbPlotSettings
  1

  2
none_device
  4

  6

 40
0.0
 41
0.0
 42
0.0
 43
0.0
 44
0.0
 45
0.0
 46
0.0
 47
0.0
 48
0.0
 49
0.0
140
0.0
141
0.0
142
1.0
143
1.0
 70
   688
 72
     1
 73
     0
 74
     5
  7

 75
    16
147
1.0
148
0.0
149
0.0
100
AcDbLayout
  1
Layout1
 70
     1
 71
     1
 10
0.0
 20
0.0
 11
420.0
 21
297.0
 12
0.0
 22
0.0
 32
0.0
 14
1.0000000000E+20
 24
1.0000000000E+20
 34
1.0000000000E+20
 15
-1.0000000000E+20
 25
-1.0000000000E+20
 35
-1.0000000000E+20
146
0.0
 13
0.0
 23
0.0
 33
0.0
 16
1.0
 26
0.0
 36
0.0
 17
0.0
 27
1.0
 37
0.0
 76
     0
330
1B
  0
LAYOUT
  5
26
102
{ACAD_REACTORS
330
1A
102
}
330
1A
100
AcDbPlotSettings
  1

  2
none_device
  4

  6

 40
0.0
 41
0.0
 42
0.0
 43
0.0
 44
0.0
 45
0.0
 46
0.0
 47
0.0
 48
0.0
 49
0.0
140
0.0
141
0.0
142
1.0
143
1.0
 70
   688
 72
     1
 73
     0
 74
     5
  7

 75
    16
147
1.0
148
0.0
149
0.0
100
AcDbLayout
  1
Layout2
 70
     1
 71
     2
 10
0.0
 20
0.0
 11
0.0
 21
0.0
 12
0.0
 22
0.0
 32
0.0
 14
0.0
 24
0.0
 34
0.0
 15
0.0
 25
0.0
 35
0.0
146
0.0
 13
0.0
 23
0.0
 33
0.0
 16
1.0
 26
0.0
 36
0.0
 17
0.0
 27
1.0
 37
0.0
 76
     0
330
23
  0
LAYOUT
  5
22
102
{ACAD_REACTORS
330
1A
102
}
330
1A
100
AcDbPlotSettings
  1

  2
none_device
  4
Letter_(8.50_x_11.00_Inches)
  6

 40
6.35
 41
6.35
 42
6.35000508
 43
6.35000508
 44
215.9
 45
279.4
 46
0.0
 47
0.0
 48
0.0
 49
0.0
140
0.0
141
0.0
142
1.0
143
1.0
 70
  1712
 72
     1
 73
     0
 74
     0
  7

 75
     0
147
1.0
148
0.0
149
0.0
100
AcDbLayout
  1
Model
 70
     1
 71
     0
 10
0.0
 20
0.0
 11
279.4
 21
215.9
 12
0.0
 22
0.0
 32
0.0
 14
0.0
 24
0.0
 34
0.0
 15
279.4
 25
215.9
 35
0.0
146
0.0
 13
0.0
 23
0.0
 33
0.0
 16
1.0
 26
0.0
 36
0.0
 17
0.0
 27
1.0
 37
0.0
 76
     0
330
1F
331
29
  0
MLINESTYLE
  5
18
102
{ACAD_REACTORS
330
17
102
}
330
17
100
AcDbMlineStyle
  2
Standard
 70
     0
  3

 62
   256
 51
90.0
 52
90.0
 71
     2
 49
0.5
 62
   256
  6
BYLAYER
 49
-0.5
 62
   256
  6
BYLAYER
  0
ACDBPLACEHOLDER
  5
F
102
{ACAD_REACTORS
330
E
102
}
330
E
  0
SCALE
  5
48
102
{ACAD_REACTORS
330
47
102
}
330
47
100
AcDbScale
 70
     0
300
1:1
140
1.0
141
1.0
290
     1
  0
SCALE
  5
49
102
{ACAD_REACTORS
330
47
102
}
330
47
100
AcDbScale
 70
     0
300
1:2
140
1.0
141
2.0
290
     0
  0
SCALE
  5
4A
102
{ACAD_REACTORS
330
47
102
}
330
47
100
AcDbScale
 70
     0
300
1:4
140
1.0
141
4.0
290
     0
  0
SCALE
  5
4B
102
{ACAD_REACTORS
330
47
102
}
330
47
100
AcDbScale
 70
     0
300
1:5
140
1.0
141
5.0
290
     0
  0
SCALE
  5
4C
102
{ACAD_REACTORS
330
47
102
}
330
47
100
AcDbScale
 70
     0
300
1:8
140
1.0
141
8.0
290
     0
  0
SCALE
  5
4D
102
{ACAD_REACTORS
330
47
102
}
330
47
100
AcDbScale
 70
     0
300
1:10
140
1.0
141
10.0
290
     0
  0
SCALE
  5
4E
102
{ACAD_REACTORS
330
47
102
}
330
47
100
AcDbScale
 70
     0
300
1:16
140
1.0
141
16.0
290
     0
  0
SCALE
  5
4F
102
{ACAD_REACTORS
330
47
102
}
330
47
100
AcDbScale
 70
     0
300
1:20
140
1.0
141
20.0
290
     0
  0
SCALE
  5
50
102
{ACAD_REACTORS
330
47
102
}
330
47
100
AcDbScale
 70
     0
300
1:30
140
1.0
141
30.0
290
     0
  0
SCALE
  5
51
102
{ACAD_REACTORS
330
47
102
}
330
47
100
AcDbScale
 70
     0
300
1:40
140
1.0
141
40.0
290
     0
  0
SCALE
  5
52
102
{ACAD_REACTORS
330
47
102
}
330
47
100
AcDbScale
 70
     0
300
1:50
140
1.0
141
50.0
290
     0
  0
SCALE
  5
53
102
{ACAD_REACTORS
330
47
102
}
330
47
100
AcDbScale
 70
     0
300
1:100
140
1.0
141
100.0
290
     0
  0
SCALE
  5
54
102
{ACAD_REACTORS
330
47
102
}
330
47
100
AcDbScale
 70
     0
300
2:1
140
2.0
141
1.0
290
     0
  0
SCALE
  5
55
102
{ACAD_REACTORS
330
47
102
}
330
47
100
AcDbScale
 70
     0
300
4:1
140
4.0
141
1.0
290
     0
  0
SCALE
  5
56
102
{ACAD_REACTORS
330
47
102
}
330
47
100
AcDbScale
 70
     0
300
8:1
140
8.0
141
1.0
290
     0
  0
SCALE
  5
57
102
{ACAD_REACTORS
330
47
102
}
330
47
100
AcDbScale
 70
     0
300
10:1
140
10.0
141
1.0
290
     0
  0
SCALE
  5
58
102
{ACAD_REACTORS
330
47
102
}
330
47
100
AcDbScale
 70
     0
300
100:1
140
100.0
141
1.0
290
     0
  0
SCALE
  5
59
102
{ACAD_REACTORS
330
47
102
}
330
47
100
AcDbScale
 70
     0
300
1/128" = 1'-0"
140
0.0078125
141
12.0
290
     0
  0
SCALE
  5
5A
102
{ACAD_REACTORS
330
47
102
}
330
47
100
AcDbScale
 70
     0
300
1/64" = 1'-0"
140
0.015625
141
12.0
290
     0
  0
SCALE
  5
5B
102
{ACAD_REACTORS
330
47
102
}
330
47
100
AcDbScale
 70
     0
300
1/32" = 1'-0"
140
0.03125
141
12.0
290
     0
  0
SCALE
  5
5C
102
{ACAD_REACTORS
330
47
102
}
330
47
100
AcDbScale
 70
     0
300
1/16" = 1'-0"
140
0.0625
141
12.0
290
     0
  0
SCALE
  5
5D
102
{ACAD_REACTORS
330
47
102
}
330
47
100
AcDbScale
 70
     0
300
3/32" = 1'-0"
140
0.09375
141
12.0
290
     0
  0
SCALE
  5
5E
102
{ACAD_REACTORS
330
47
102
}
330
47
100
AcDbScale
 70
     0
300
1/8" = 1'-0"
140
0.125
141
12.0
290
     0
  0
SCALE
  5
5F
102
{ACAD_REACTORS
330
47
102
}
330
47
100
AcDbScale
 70
     0
300
3/16" = 1'-0"
140
0.1875
141
12.0
290
     0
  0
SCALE
  5
60
102
{ACAD_REACTORS
330
47
102
}
330
47
100
AcDbScale
 70
     0
300
1/4" = 1'-0"
140
0.25
141
12.0
290
     0
  0
SCALE
  5
61
102
{ACAD_REACTORS
330
47
102
}
330
47
100
AcDbScale
 70
     0
300
3/8" = 1'-0"
140
0.375
141
12.0
290
     0
  0
SCALE
  5
62
102
{ACAD_REACTORS
330
47
102
}
330
47
100
AcDbScale
 70
     0
300
1/2" = 1'-0"
140
0.5
141
12.0
290
     0
  0
SCALE
  5
63
102
{ACAD_REACTORS
330
47
102
}
330
47
100
AcDbScale
 70
     0
300
3/4" = 1'-0"
140
0.75
141
12.0
290
     0
  0
SCALE
  5
64
102
{ACAD_REACTORS
330
47
102
}
330
47
100
AcDbScale
 70
     0
300
1" = 1'-0"
140
1.0
141
12.0
290
     0
  0
SCALE
  5
65
102
{ACAD_REACTORS
330
47
102
}
330
47
100
AcDbScale
 70
     0
300
1-1/2" = 1'-0"
140
1.5
141
12.0
290
     0
  0
SCALE
  5
66
102
{ACAD_REACTORS
330
47
102
}
330
47
100
AcDbScale
 70
     0
300
3" = 1'-0"
140
3.0
141
12.0
290
     0
  0
SCALE
  5
67
102
{ACAD_REACTORS
330
47
102
}
330
47
100
AcDbScale
 70
     0
300
6" = 1'-0"
140
6.0
141
12.0
290
     0
  0
SCALE
  5
68
102
{ACAD_REACTORS
330
47
102
}
330
47
100
AcDbScale
 70
     0
300
1'-0" = 1'-0"
140
12.0
141
12.0
290
     0
  0
ENDSEC
  0
EOF
